  0
SECTION
  2
HEADER
  9
$ACADVER
  1
AC1015
  9
$ACADMAINTVER
 70
     6
  9
$DWGCODEPAGE
  3
ANSI_1254
  9
$INSBASE
 10
0.0
 20
0.0
 30
0.0
  9
$EXTMIN
 10
0.0
 20
0.0
 30
0.0
  9
$EXTMAX
 10
279.4
 20
215.9
 30
0.0
  9
$LIMMIN
 10
0.0
 20
0.0
  9
$LIMMAX
 10
279.4
 20
215.9
  9
$ORTHOMODE
 70
     0
  9
$REGENMODE
 70
     1
  9
$FILLMODE
 70
     1
  9
$QTEXTMODE
 70
     0
  9
$MIRRTEXT
 70
     1
  9
$LTSCALE
 40
1.0
  9
$ATTMODE
 70
     1
  9
$TEXTSIZE
 40
3.5
  9
$TRACEWID
 40
1.0
  9
$TEXTSTYLE
  7
Standard
  9
$CLAYER
  8
0
  9
$CELTYPE
  6
ByLayer
  9
$CECOLOR
 62
   256
  9
$CELTSCALE
 40
1.0
  9
$DISPSILH
 70
     0
  9
$DIMSCALE
 40
1.0
  9
$DIMASZ
 40
3.5
  9
$DIMEXO
 40
1.0
  9
$DIMDLI
 40
3.75
  9
$DIMRND
 40
0.0
  9
$DIMDLE
 40
0.0
  9
$DIMEXE
 40
1.0
  9
$DIMTP
 40
0.0
  9
$DIMTM
 40
0.0
  9
$DIMTXT
 40
3.5
  9
$DIMCEN
 40
2.5
  9
$DIMTSZ
 40
0.0
  9
$DIMTOL
 70
     0
  9
$DIMLIM
 70
     0
  9
$DIMTIH
 70
     1
  9
$DIMTOH
 70
     1
  9
$DIMSE1
 70
     0
  9
$DIMSE2
 70
     0
  9
$DIMTAD
 70
     1
  9
$DIMZIN
 70
     0
  9
$DIMBLK
  1

  9
$DIMASO
 70
     1
  9
$DIMSHO
 70
     1
  9
$DIMPOST
  1

  9
$DIMAPOST
  1

  9
$DIMALT
 70
     0
  9
$DIMALTD
 70
     3
  9
$DIMALTF
 40
0.0393700787
  9
$DIMLFAC
 40
1.0
  9
$DIMTOFL
 70
     1
  9
$DIMTVP
 40
0.0
  9
$DIMTIX
 70
     0
  9
$DIMSOXD
 70
     0
  9
$DIMSAH
 70
     0
  9
$DIMBLK1
  1

  9
$DIMBLK2
  1

  9
$DIMSTYLE
  2
ISO-25
  9
$DIMCLRD
 70
     0
  9
$DIMCLRE
 70
     0
  9
$DIMCLRT
 70
     0
  9
$DIMTFAC
 40
1.0
  9
$DIMGAP
 40
1.524
  9
$DIMJUST
 70
     0
  9
$DIMSD1
 70
     0
  9
$DIMSD2
 70
     0
  9
$DIMTOLJ
 70
     0
  9
$DIMTZIN
 70
     0
  9
$DIMALTZ
 70
     0
  9
$DIMALTTZ
 70
     0
  9
$DIMUPT
 70
     0
  9
$DIMDEC
 70
     2
  9
$DIMTDEC
 70
     2
  9
$DIMALTU
 70
     2
  9
$DIMALTTD
 70
     3
  9
$DIMTXSTY
  7
Standard
  9
$DIMAUNIT
 70
     0
  9
$DIMADEC
 70
     2
  9
$DIMALTRND
 40
0.0
  9
$DIMAZIN
 70
     0
  9
$DIMDSEP
 70
    44
  9
$DIMATFIT
 70
     3
  9
$DIMFRAC
 70
     0
  9
$DIMLDRBLK
  1

  9
$DIMLUNIT
 70
     2
  9
$DIMLWD
 70
    -2
  9
$DIMLWE
 70
    -2
  9
$DIMTMOVE
 70
     0
  9
$LUNITS
 70
     2
  9
$LUPREC
 70
     2
  9
$SKETCHINC
 40
1.0
  9
$FILLETRAD
 40
10.0
  9
$AUNITS
 70
     0
  9
$AUPREC
 70
     2
  9
$MENU
  1
.
  9
$ELEVATION
 40
0.0
  9
$PELEVATION
 40
0.0
  9
$THICKNESS
 40
0.0
  9
$LIMCHECK
 70
     0
  9
$CHAMFERA
 40
0.0
  9
$CHAMFERB
 40
0.0
  9
$CHAMFERC
 40
0.0
  9
$CHAMFERD
 40
0.0
  9
$SKPOLY
 70
     0
  9
$TDCREATE
 40
2460704.460261319
  9
$TDUCREATE
 40
2460704.335261319
  9
$TDUPDATE
 40
2460704.460261551
  9
$TDUUPDATE
 40
2460704.335261551
  9
$TDINDWG
 40
0.0000000116
  9
$TDUSRTIMER
 40
0.0000000116
  9
$USRTIMER
 70
     1
  9
$ANGBASE
 50
0.0
  9
$ANGDIR
 70
     0
  9
$PDMODE
 70
     0
  9
$PDSIZE
 40
-1.0
  9
$PLINEWID
 40
0.0
  9
$SPLFRAME
 70
     0
  9
$SPLINETYPE
 70
     6
  9
$SPLINESEGS
 70
     8
  9
$HANDSEED
  5
B7
  9
$SURFTAB1
 70
     6
  9
$SURFTAB2
 70
     6
  9
$SURFTYPE
 70
     6
  9
$SURFU
 70
     6
  9
$SURFV
 70
     6
  9
$UCSBASE
  2

  9
$UCSNAME
  2

  9
$UCSORG
 10
0.0
 20
0.0
 30
0.0
  9
$UCSXDIR
 10
1.0
 20
0.0
 30
0.0
  9
$UCSYDIR
 10
0.0
 20
1.0
 30
0.0
  9
$UCSORTHOREF
  2

  9
$UCSORTHOVIEW
 70
     0
  9
$UCSORGTOP
 10
0.0
 20
0.0
 30
0.0
  9
$UCSORGBOTTOM
 10
0.0
 20
0.0
 30
0.0
  9
$UCSORGLEFT
 10
0.0
 20
0.0
 30
0.0
  9
$UCSORGRIGHT
 10
0.0
 20
0.0
 30
0.0
  9
$UCSORGFRONT
 10
0.0
 20
0.0
 30
0.0
  9
$UCSORGBACK
 10
0.0
 20
0.0
 30
0.0
  9
$PUCSBASE
  2

  9
$PUCSNAME
  2

  9
$PUCSORG
 10
0.0
 20
0.0
 30
0.0
  9
$PUCSXDIR
 10
1.0
 20
0.0
 30
0.0
  9
$PUCSYDIR
 10
0.0
 20
1.0
 30
0.0
  9
$PUCSORTHOREF
  2

  9
$PUCSORTHOVIEW
 70
     0
  9
$PUCSORGTOP
 10
0.0
 20
0.0
 30
0.0
  9
$PUCSORGBOTTOM
 10
0.0
 20
0.0
 30
0.0
  9
$PUCSORGLEFT
 10
0.0
 20
0.0
 30
0.0
  9
$PUCSORGRIGHT
 10
0.0
 20
0.0
 30
0.0
  9
$PUCSORGFRONT
 10
0.0
 20
0.0
 30
0.0
  9
$PUCSORGBACK
 10
0.0
 20
0.0
 30
0.0
  9
$USERI1
 70
     0
  9
$USERI2
 70
     0
  9
$USERI3
 70
     0
  9
$USERI4
 70
     0
  9
$USERI5
 70
     0
  9
$USERR1
 40
0.0
  9
$USERR2
 40
0.0
  9
$USERR3
 40
0.0
  9
$USERR4
 40
0.0
  9
$USERR5
 40
0.0
  9
$WORLDVIEW
 70
     1
  9
$SHADEDGE
 70
     3
  9
$SHADEDIF
 70
    70
  9
$TILEMODE
 70
     1
  9
$MAXACTVP
 70
    64
  9
$PINSBASE
 10
0.0
 20
0.0
 30
0.0
  9
$PLIMCHECK
 70
     0
  9
$PEXTMIN
 10
1.0000000000E+20
 20
1.0000000000E+20
 30
1.0000000000E+20
  9
$PEXTMAX
 10
-1.0000000000E+20
 20
-1.0000000000E+20
 30
-1.0000000000E+20
  9
$PLIMMIN
 10
0.0
 20
0.0
  9
$PLIMMAX
 10
420.0
 20
297.0
  9
$UNITMODE
 70
     0
  9
$VISRETAIN
 70
     1
  9
$PLINEGEN
 70
     0
  9
$PSLTSCALE
 70
     1
  9
$TREEDEPTH
 70
  3020
  9
$CMLSTYLE
  2
Standard
  9
$CMLJUST
 70
     0
  9
$CMLSCALE
 40
20.0
  9
$PROXYGRAPHICS
 70
     1
  9
$MEASUREMENT
 70
     1
  9
$CELWEIGHT
370
    -1
  9
$ENDCAPS
280
     0
  9
$JOINSTYLE
280
     0
  9
$LWDISPLAY
290
     1
  9
$INSUNITS
 70
     4
  9
$HYPERLINKBASE
  1

  9
$STYLESHEET
  1

  9
$XEDIT
290
     1
  9
$CEPSNTYPE
380
     0
  9
$PSTYLEMODE
290
     1
  9
$FINGERPRINTGUID
  2
{c219e66b-d86f-43f4-a6fd-201200c0324f}
  9
$VERSIONGUID
  2
{FAEB1C32-E019-11D5-929B-00C0DF256EC4}
  9
$EXTNAMES
290
     1
  9
$PSVPSCALE
 40
0.0
  9
$OLESTARTUP
290
     0
  0
ENDSEC
  0
SECTION
  2
CLASSES
  0
CLASS
  1
ACDBDICTIONARYWDFLT
  2
AcDbDictionaryWithDefault
  3
ObjectDBX Classes
 90
        0
280
     0
281
     0
  0
CLASS
  1
VISUALSTYLE
  2
AcDbVisualStyle
  3
ObjectDBX Classes
 90
     4095
280
     0
281
     0
  0
CLASS
  1
MATERIAL
  2
AcDbMaterial
  3
ObjectDBX Classes
 90
     1153
280
     0
281
     0
  0
CLASS
  1
SCALE
  2
AcDbScale
  3
ObjectDBX Classes
 90
     1153
280
     0
281
     0
  0
CLASS
  1
TABLESTYLE
  2
AcDbTableStyle
  3
ObjectDBX Classes
 90
     4095
280
     0
281
     0
  0
CLASS
  1
MLEADERSTYLE
  2
AcDbMLeaderStyle
  3
ACDB_MLEADERSTYLE_CLASS
 90
     4095
280
     0
281
     0
  0
CLASS
  1
SUN
  2
AcDbSun
  3
SCENEOE
 90
     1153
280
     0
281
     0
  0
CLASS
  1
ACDBPLACEHOLDER
  2
AcDbPlaceHolder
  3
ObjectDBX Classes
 90
        0
280
     0
281
     0
  0
CLASS
  1
LAYOUT
  2
AcDbLayout
  3
ObjectDBX Classes
 90
        0
280
     0
281
     0
  0
ENDSEC
  0
SECTION
  2
TABLES
  0
TABLE
  2
VPORT
  5
8
330
0
100
AcDbSymbolTable
 70
     1
  0
VPORT
  5
29
330
8
100
AcDbSymbolTableRecord
100
AcDbViewportTableRecord
  2
*Active
 70
     0
 10
0.0
 20
0.0
 11
1.0
 21
1.0
 12
139.7
 22
107.95
 13
0.0
 23
0.0
 14
10.0
 24
10.0
 15
10.0
 25
10.0
 16
0.0
 26
0.0
 36
1.0
 17
0.0
 27
0.0
 37
0.0
 40
215.9
 41
1.2941176471
 42
50.0
 43
0.0
 44
0.0
 50
0.0
 51
0.0
 71
     0
 72
  2000
 73
     1
 74
     3
 75
     0
 76
     0
 77
     0
 78
     0
281
     0
 65
     1
110
0.0
120
0.0
130
0.0
111
1.0
121
0.0
131
0.0
112
0.0
122
1.0
132
0.0
 79
     0
146
0.0
  0
ENDTAB
  0
TABLE
  2
LTYPE
  5
5
330
0
100
AcDbSymbolTable
 70
     6
  0
LTYPE
  5
14
330
5
100
AcDbSymbolTableRecord
100
AcDbLinetypeTableRecord
  2
ByBlock
 70
     0
  3

 72
    65
 73
     0
 40
0.0
  0
LTYPE
  5
15
330
5
100
AcDbSymbolTableRecord
100
AcDbLinetypeTableRecord
  2
ByLayer
 70
     0
  3

 72
    65
 73
     0
 40
0.0
  0
LTYPE
  5
16
330
5
100
AcDbSymbolTableRecord
100
AcDbLinetypeTableRecord
  2
Continuous
 70
     0
  3
Solid line
 72
    65
 73
     0
 40
0.0
  0
LTYPE
  5
6E
330
5
100
AcDbSymbolTableRecord
100
AcDbLinetypeTableRecord
  2
HIDDEN
 70
     0
  3
Hidden __ __ __ __ __ __ __ __ __ __ __ __ __ __
 72
    65
 73
     2
 40
1.905
 49
1.27
 74
     0
 49
-0.635
 74
     0
  0
LTYPE
  5
6F
330
5
100
AcDbSymbolTableRecord
100
AcDbLinetypeTableRecord
  2
PHANTOM
 70
     0
  3
Phantom ______  __  __  ______  __  __  ______
 72
    65
 73
     6
 40
12.7
 49
6.35
 74
     0
 49
-1.27
 74
     0
 49
1.27
 74
     0
 49
-1.27
 74
     0
 49
1.27
 74
     0
 49
-1.27
 74
     0
  0
LTYPE
  5
70
330
5
100
AcDbSymbolTableRecord
100
AcDbLinetypeTableRecord
  2
CENTER
 70
     0
  3
Center ____ _ ____ _ ____ _ ____ _ ____ _ ____
 72
    65
 73
     4
 40
10.16
 49
6.35
 74
     0
 49
-1.27
 74
     0
 49
1.27
 74
     0
 49
-1.27
 74
     0
  0
LTYPE
  5
71
330
5
100
AcDbSymbolTableRecord
100
AcDbLinetypeTableRecord
  2
CENTERX2
 70
     0
  3
Center (2x) ________  __  ________  __  _____
 72
    65
 73
     4
 40
20.32
 49
12.7
 74
     0
 49
-2.54
 74
     0
 49
2.54
 74
     0
 49
-2.54
 74
     0
  0
LTYPE
  5
72
330
5
100
AcDbSymbolTableRecord
100
AcDbLinetypeTableRecord
  2
DOT2
 70
     0
  3
Dot (.5x) ........................................
 72
    65
 73
     2
 40
0.635
 49
0.0
 74
     0
 49
-0.635
 74
     0
  0
ENDTAB
  0
TABLE
  2
LAYER
  5
2
330
0
100
AcDbSymbolTable
 70
    17
  0
LAYER
  5
10
330
2
100
AcDbSymbolTableRecord
100
AcDbLayerTableRecord
  2
0
 70
     0
 62
     7
  6
Continuous
370
    -3
390
F
  0
LAYER
  5
73
330
2
100
AcDbSymbolTableRecord
100
AcDbLayerTableRecord
  2
FORMAT
 70
     0
 62
     7
  6
Continuous
370
    -3
390
F
  0
LAYER
  5
74
330
2
100
AcDbSymbolTableRecord
100
AcDbLayerTableRecord
  2
YARDIMCI_GEOMETRI
 70
     0
 62
    -6
  6
Continuous
290
     0
370
    -3
390
F
  0
LAYER
  5
75
330
2
100
AcDbSymbolTableRecord
100
AcDbLayerTableRecord
  2
SAYFA_CERCEVESI
 70
     0
 62
     7
  6
Continuous
370
    25
390
F
  0
LAYER
  5
76
330
2
100
AcDbSymbolTableRecord
100
AcDbLayerTableRecord
  2
ANTET
 70
     0
 62
     7
  6
Continuous
370
    -3
390
F
  0
LAYER
  5
77
330
2
100
AcDbSymbolTableRecord
100
AcDbLayerTableRecord
  2
OLCU
 70
     0
 62
   150
  6
Continuous
370
    -3
390
F
  0
LAYER
  5
78
330
2
100
AcDbSymbolTableRecord
100
AcDbLayerTableRecord
  2
METIN
 70
     0
 62
    96
  6
Continuous
370
    -3
390
F
  0
LAYER
  5
79
330
2
100
AcDbSymbolTableRecord
100
AcDbLayerTableRecord
  2
BALON
 70
     0
 62
     5
  6
Continuous
370
    -3
390
F
  0
LAYER
  5
7A
330
2
100
AcDbSymbolTableRecord
100
AcDbLayerTableRecord
  2
VURGU
 70
     0
 62
     7
  6
Continuous
370
    -3
390
F
  0
LAYER
  5
7B
330
2
100
AcDbSymbolTableRecord
100
AcDbLayerTableRecord
  2
SILIK
 70
     0
 62
     7
  6
Continuous
370
    -3
390
F
  0
LAYER
  5
7C
330
2
100
AcDbSymbolTableRecord
100
AcDbLayerTableRecord
  2
MODEL
 70
     0
 62
     7
  6
Continuous
370
    -3
390
F
  0
LAYER
  5
7D
330
2
100
AcDbSymbolTableRecord
100
AcDbLayerTableRecord
  2
DETAYLANDıRMA
 70
     0
 62
   190
  6
Continuous
370
    -3
390
F
  0
LAYER
  5
7E
330
2
100
AcDbSymbolTableRecord
100
AcDbLayerTableRecord
  2
TOLERANS
 70
     0
 62
   230
  6
Continuous
370
    -3
390
F
  0
LAYER
  5
7F
330
2
100
AcDbSymbolTableRecord
100
AcDbLayerTableRecord
  2
MERKEZ_CIZGILERI
 70
     0
 62
    30
  6
Continuous
370
    -3
390
F
  0
LAYER
  5
80
330
2
100
AcDbSymbolTableRecord
100
AcDbLayerTableRecord
  2
KESIT-DETAY_CIZGILERI
 70
     0
 62
     7
  6
Continuous
370
    -3
390
F
  0
LAYER
  5
81
330
2
100
AcDbSymbolTableRecord
100
AcDbLayerTableRecord
  2
\U+041E\U+0421\U+0415\U+0412\U+042B\U+0415
 70
     0
 62
     7
  6
Continuous
370
    -3
390
F
  0
LAYER
  5
82
330
2
100
AcDbSymbolTableRecord
100
AcDbLayerTableRecord
  2
\U+0412\U+041E\U+0414\U+042F\U+041D\U+042B\U+0415_\U+0417\U+041D\U+0410\U+041A\U+0418
 70
     0
 62
    11
  6
Continuous
370
    -3
390
F
  0
ENDTAB
  0
TABLE
  2
STYLE
  5
3
330
0
100
AcDbSymbolTable
 70
     1
  0
STYLE
  5
11
330
3
100
AcDbSymbolTableRecord
100
AcDbTextStyleTableRecord
  2
Standard
 70
     0
 40
0.0
 41
1.0
 50
0.0
 71
     0
 42
3.5
  3
txt
  4

  0
ENDTAB
  0
TABLE
  2
VIEW
  5
6
330
0
100
AcDbSymbolTable
 70
     0
  0
ENDTAB
  0
TABLE
  2
UCS
  5
7
330
0
100
AcDbSymbolTable
 70
     0
  0
ENDTAB
  0
TABLE
  2
APPID
  5
9
330
0
100
AcDbSymbolTable
 70
     1
  0
APPID
  5
12
330
9
100
AcDbSymbolTableRecord
100
AcDbRegAppTableRecord
  2
ACAD
 70
     0
  0
ENDTAB
  0
TABLE
  2
DIMSTYLE
  5
A
330
0
100
AcDbSymbolTable
 70
     1
100
AcDbDimStyleTable
  0
DIMSTYLE
105
27
330
A
100
AcDbSymbolTableRecord
100
AcDbDimStyleTableRecord
  2
ISO-25
 70
     0
 41
2.5
 42
0.625
 43
3.75
 44
1.25
 73
     0
 74
     0
 77
     1
 78
     8
140
2.5
141
2.5
143
0.0393700787
147
0.625
171
     3
172
     1
178
     0
271
     2
272
     2
274
     3
278
    44
283
     0
284
     8
340
11
  0
ENDTAB
  0
TABLE
  2
BLOCK_RECORD
  5
1
330
0
100
AcDbSymbolTable
 70
     2
  0
BLOCK_RECORD
  5
1F
330
1
100
AcDbSymbolTableRecord
100
AcDbBlockTableRecord
  2
*Model_Space
340
22
  0
BLOCK_RECORD
  5
1B
330
1
100
AcDbSymbolTableRecord
100
AcDbBlockTableRecord
  2
*Paper_Space
340
1E
  0
BLOCK_RECORD
  5
23
330
1
100
AcDbSymbolTableRecord
100
AcDbBlockTableRecord
  2
*Paper_Space0
340
26
  0
BLOCK_RECORD
  5
85
330
1
100
AcDbSymbolTableRecord
100
AcDbBlockTableRecord
  2
SW_CENTERMARKSYMBOL_0
340
0
102
{BLKREFS
331
90
102
}
  0
ENDTAB
  0
ENDSEC
  0
SECTION
  2
BLOCKS
  0
BLOCK
  5
20
330
1F
100
AcDbEntity
  8
0
100
AcDbBlockBegin
  2
*Model_Space
 70
     0
 10
0.0
 20
0.0
 30
0.0
  3
*Model_Space
  1

  0
ENDBLK
  5
21
330
1F
100
AcDbEntity
  8
0
100
AcDbBlockEnd
  0
BLOCK
  5
1C
330
1B
100
AcDbEntity
 67
     1
  8
0
100
AcDbBlockBegin
  2
*Paper_Space
 70
     0
 10
0.0
 20
0.0
 30
0.0
  3
*Paper_Space
  1

  0
ENDBLK
  5
1D
330
1B
100
AcDbEntity
 67
     1
  8
0
100
AcDbBlockEnd
  0
BLOCK
  5
24
330
23
100
AcDbEntity
  8
0
100
AcDbBlockBegin
  2
*Paper_Space0
 70
     0
 10
0.0
 20
0.0
 30
0.0
  3
*Paper_Space0
  1

  0
ENDBLK
  5
25
330
23
100
AcDbEntity
  8
0
100
AcDbBlockEnd
  0
BLOCK
  5
86
330
85
100
AcDbEntity
  8
0
100
AcDbBlockBegin
  2
SW_CENTERMARKSYMBOL_0
 70
     0
 10
0.0
 20
0.0
 30
0.0
  3
SW_CENTERMARKSYMBOL_0
  1

  0
LINE
  5
88
330
85
100
AcDbEntity
  8
FORMAT
 62
     0
100
AcDbLine
 10
0.0
 20
0.0
 30
0.0
 11
0.0
 21
2.5
 31
0.0
  0
LINE
  5
89
330
85
100
AcDbEntity
  8
FORMAT
 62
     0
100
AcDbLine
 10
0.0
 20
0.0
 30
0.0
 11
-2.5
 21
0.0
 31
0.0
  0
LINE
  5
8A
330
85
100
AcDbEntity
  8
FORMAT
 62
     0
100
AcDbLine
 10
0.0
 20
0.0
 30
0.0
 11
0.0
 21
-2.5
 31
0.0
  0
LINE
  5
8B
330
85
100
AcDbEntity
  8
FORMAT
 62
     0
100
AcDbLine
 10
0.0
 20
0.0
 30
0.0
 11
2.5
 21
0.0
 31
0.0
  0
LINE
  5
8C
330
85
100
AcDbEntity
  8
FORMAT
 62
     0
100
AcDbLine
 10
0.0
 20
5.0
 30
0.0
 11
0.0
 21
142.5
 31
0.0
  0
LINE
  5
8D
330
85
100
AcDbEntity
  8
FORMAT
 62
     0
100
AcDbLine
 10
-5.0
 20
0.0
 30
0.0
 11
-142.5
 21
0.0
 31
0.0
  0
LINE
  5
8E
330
85
100
AcDbEntity
  8
FORMAT
 62
     0
100
AcDbLine
 10
0.0
 20
-5.0
 30
0.0
 11
0.0
 21
-142.5
 31
0.0
  0
LINE
  5
8F
330
85
100
AcDbEntity
  8
FORMAT
 62
     0
100
AcDbLine
 10
5.0
 20
0.0
 30
0.0
 11
142.5
 21
0.0
 31
0.0
  0
ENDBLK
  5
87
330
85
100
AcDbEntity
  8
0
100
AcDbBlockEnd
  0
ENDSEC
  0
SECTION
  2
ENTITIES
  0
CIRCLE
  5
83
330
1F
100
AcDbEntity
  8
0
  6
Continuous
 62
     7
370
    25
100
AcDbCircle
 10
140.9361407121
 20
102.8493079988
 30
0.0
 40
140.0
  0
CIRCLE
  5
84
330
1F
100
AcDbEntity
  8
0
  6
Continuous
 62
     7
370
    25
100
AcDbCircle
 10
140.9361407121
 20
102.8493079988
 30
0.0
 40
123.4
  0
INSERT
  5
90
330
1F
100
AcDbEntity
  8
FORMAT
 62
     7
100
AcDbBlockReference
  2
SW_CENTERMARKSYMBOL_0
 10
140.9361407121
 20
102.8493079988
 30
0.0
  0
ARC
  5
91
330
1F
100
AcDbEntity
  8
0
  6
Continuous
 62
     7
370
    25
100
AcDbCircle
 10
136.3497709205
 20
199.2796140491
 30
0.0
 40
559.9999999999999
100
AcDbArc
 50
256.0066041338
 51
270.0
  0
ARC
  5
92
330
1F
100
AcDbEntity
  8
0
  6
Continuous
 62
     7
370
    25
100
AcDbCircle
 10
145.5225105038
 20
199.2796140491
 30
0.0
 40
559.9999999999999
100
AcDbArc
 50
270.0
 51
283.9933958662
  0
LINE
  5
93
330
1F
100
AcDbEntity
  8
0
  6
Continuous
 62
     7
370
    25
100
AcDbLine
 10
136.3497709205
 20
-360.7203859509
 30
0.0
 11
145.5225105038
 21
-360.7203859509
 31
0.0
  0
LINE
  5
94
330
1F
100
AcDbEntity
  8
0
  6
Continuous
 62
     7
370
    25
100
AcDbLine
 10
0.9361407121
 20
-184.9726889335
 30
0.0
 11
0.9361407121
 21
-344.1016045753
 31
0.0
  0
LINE
  5
95
330
1F
100
AcDbEntity
  8
0
  6
Continuous
 62
     7
370
    25
100
AcDbLine
 10
280.9361407121
 20
-344.1016045753
 30
0.0
 11
280.9361407121
 21
-184.9726889335
 31
0.0
  0
LINE
  5
96
330
1F
100
AcDbEntity
  8
0
  6
Continuous
 62
     7
370
    25
100
AcDbLine
 10
140.9361407121
 20
-344.1016045753
 30
0.0
 11
280.9361407121
 21
-344.1016045753
 31
0.0
  0
LINE
  5
97
330
1F
100
AcDbEntity
  8
0
  6
Continuous
 62
     7
370
    25
100
AcDbLine
 10
0.9361407121
 20
-344.1016045753
 30
0.0
 11
140.9361407121
 21
-344.1016045753
 31
0.0
  0
LINE
  5
98
330
1F
100
AcDbEntity
  8
0
  6
Continuous
 62
     7
370
    25
100
AcDbLine
 10
140.9361407121
 20
-184.9726889335
 30
0.0
 11
280.9361407121
 21
-184.9726889335
 31
0.0
  0
LINE
  5
99
330
1F
100
AcDbEntity
  8
0
  6
Continuous
 62
     7
370
    25
100
AcDbLine
 10
0.9361407121
 20
-184.9726889335
 30
0.0
 11
140.9361407121
 21
-184.9726889335
 31
0.0
  0
LINE
  5
9A
330
1F
100
AcDbEntity
  8
0
  6
Continuous
 62
     7
370
    25
100
AcDbLine
 10
280.9361407121
 20
336.9968862835
 30
0.0
 11
280.9361407121
 21
496.1258019254
 31
0.0
  0
LINE
  5
9B
330
1F
100
AcDbEntity
  8
0
  6
Continuous
 62
     7
370
    25
100
AcDbLine
 10
0.9361407121
 20
496.1258019254
 30
0.0
 11
0.9361407121
 21
336.9968862835
 31
0.0
  0
ARC
  5
9C
330
1F
100
AcDbEntity
  8
0
  6
Continuous
 62
     7
370
    25
100
AcDbCircle
 10
145.5225105038
 20
-47.2554166991
 30
0.0
 40
559.9999999999999
100
AcDbArc
 50
76.0066041338
 51
90.0
  0
ARC
  5
9D
330
1F
100
AcDbEntity
  8
0
  6
Continuous
 62
     7
370
    25
100
AcDbCircle
 10
136.3497709205
 20
-47.2554166991
 30
0.0
 40
559.9999999999999
100
AcDbArc
 50
90.0
 51
103.9933958662
  0
LINE
  5
9E
330
1F
100
AcDbEntity
  8
0
  6
Continuous
 62
     7
370
    25
100
AcDbLine
 10
145.5225105038
 20
512.7445833009
 30
0.0
 11
136.3497709205
 21
512.7445833009
 31
0.0
  0
LINE
  5
9F
330
1F
100
AcDbEntity
  8
0
  6
Continuous
 62
     7
370
    25
100
AcDbLine
 10
280.9361407121
 20
336.9968862835
 30
0.0
 11
0.9361407121
 21
336.9968862835
 31
0.0
  0
LINE
  5
A0
330
1F
100
AcDbEntity
  8
0
  6
Continuous
 62
     7
370
    25
100
AcDbLine
 10
280.9361407121
 20
496.1258019254
 30
0.0
 11
0.9361407121
 21
496.1258019254
 31
0.0
  0
ARC
  5
A1
330
1F
100
AcDbEntity
  8
0
  6
Continuous
 62
     7
370
    25
100
AcDbCircle
 10
917.5917174792
 20
107.4356777904
 30
0.0
 40
560.0
100
AcDbArc
 50
166.0066041338
 51
180.0
  0
ARC
  5
A2
330
1F
100
AcDbEntity
  8
0
  6
Continuous
 62
     7
370
    25
100
AcDbCircle
 10
917.5917174792
 20
98.2629382071
 30
0.0
 40
560.0
100
AcDbArc
 50
180.0
 51
193.9933958662
  0
LINE
  5
A3
330
1F
100
AcDbEntity
  8
0
  6
Continuous
 62
     7
370
    25
100
AcDbLine
 10
357.5917174792
 20
107.4356777904
 30
0.0
 11
357.5917174792
 21
98.2629382071
 31
0.0
  0
LINE
  5
A4
330
1F
100
AcDbEntity
  8
0
  6
Continuous
 62
     7
370
    25
100
AcDbLine
 10
533.3394144965
 20
242.8493079988
 30
0.0
 11
374.2104988547
 21
242.8493079988
 31
0.0
  0
LINE
  5
A5
330
1F
100
AcDbEntity
  8
0
  6
Continuous
 62
     7
370
    25
100
AcDbLine
 10
374.2104988547
 20
-37.1506920012
 30
0.0
 11
533.3394144965
 21
-37.1506920012
 31
0.0
  0
LINE
  5
A6
330
1F
100
AcDbEntity
  8
0
  6
Continuous
 62
     7
370
    25
100
AcDbLine
 10
374.2104988547
 20
242.8493079988
 30
0.0
 11
374.2104988547
 21
-37.1506920012
 31
0.0
  0
LINE
  5
A7
330
1F
100
AcDbEntity
  8
0
  6
Continuous
 62
     7
370
    25
100
AcDbLine
 10
533.3394144965
 20
242.8493079988
 30
0.0
 11
533.3394144965
 21
-37.1506920012
 31
0.0
  0
ARC
  5
A8
330
1F
100
AcDbEntity
  8
0
  6
Continuous
 62
     7
370
    25
100
AcDbCircle
 10
-612.0818404204
 20
98.2629382071
 30
0.0
 40
559.9999999999998
100
AcDbArc
 50
346.0066041338
 51
0.0
  0
ARC
  5
A9
330
1F
100
AcDbEntity
  8
0
  6
Continuous
 62
     7
370
    25
100
AcDbCircle
 10
-612.0818404204
 20
107.4356777904
 30
0.0
 40
559.9999999999998
100
AcDbArc
 50
0.0
 51
13.9933958662
  0
LINE
  5
AA
330
1F
100
AcDbEntity
  8
0
  6
Continuous
 62
     7
370
    25
100
AcDbLine
 10
-52.0818404204
 20
98.2629382071
 30
0.0
 11
-52.0818404204
 21
107.4356777904
 31
0.0
  0
LINE
  5
AB
330
1F
100
AcDbEntity
  8
0
  6
Continuous
 62
     7
370
    25
100
AcDbLine
 10
-227.8295374377
 20
-37.1506920012
 30
0.0
 11
-68.7006217959
 21
-37.1506920012
 31
0.0
  0
LINE
  5
AC
330
1F
100
AcDbEntity
  8
0
  6
Continuous
 62
     7
370
    25
100
AcDbLine
 10
-68.7006217959
 20
242.8493079988
 30
0.0
 11
-227.8295374377
 21
242.8493079988
 31
0.0
  0
LINE
  5
AD
330
1F
100
AcDbEntity
  8
0
  6
Continuous
 62
     7
370
    25
100
AcDbLine
 10
-68.7006217959
 20
-37.1506920012
 30
0.0
 11
-68.7006217959
 21
242.8493079988
 31
0.0
  0
LINE
  5
AE
330
1F
100
AcDbEntity
  8
0
  6
Continuous
 62
     7
370
    25
100
AcDbLine
 10
-227.8295374377
 20
-37.1506920012
 30
0.0
 11
-227.8295374377
 21
242.8493079988
 31
0.0
  0
LINE
  5
AF
330
1F
100
AcDbEntity
  8
0
  6
Continuous
 62
     7
370
    25
100
AcDbLine
 10
347.4071470236
 20
-369.1995298601
 30
0.0
 11
459.9282823568
 21
-434.1565986379
 31
0.0
  0
LINE
  5
B0
330
1F
100
AcDbEntity
  8
0
  6
Continuous
 62
     7
370
    25
100
AcDbLine
 10
599.9169049259
 20
-191.6629171713
 30
0.0
 11
487.3957695927
 21
-126.7058483935
 31
0.0
  0
LWPOLYLINE
  5
B1
330
1F
100
AcDbEntity
  8
0
  6
Continuous
 62
     7
370
    25
100
AcDbPolyline
 90
      137
 70
   128
 43
0.0
 10
417.4014583081
 20
-362.2684027908
 10
421.9733874583
 20
-359.5071065249
 10
426.5355598813
 20
-356.5077475105
 10
431.0782396712
 20
-353.2767265308
 10
435.5917325204
 20
-349.8209387475
 10
440.0664064078
 20
-346.1477589858
 10
444.4927121537
 20
-342.2650259964
 10
448.8612037986
 20
-338.1810257273
 10
453.1625587613
 20
-333.9044736408
 10
457.3875977333
 20
-329.4444961146
 10
461.5273042688
 20
-324.8106109654
 10
465.5728440252
 20
-320.0127071378
 10
469.5155836169
 20
-315.0610236003
 10
473.3471090389
 20
-309.966127495
 10
477.0592436228
 20
-304.7388915871
 10
480.6440654864
 20
-299.3904710614
 10
484.0939244391
 20
-293.9322797169
 10
487.4014583081
 20
-288.3759656088
 10
490.5596086495
 20
-282.7333861916
 10
493.5616358112
 20
-277.0165830141
 10
496.401133316
 20
-271.2377560223
 10
499.0720415332
 20
-265.4092375244
 10
501.5686606099
 20
-259.5434658724
 10
503.8856626353
 20
-253.6529589187
 10
506.0181030102
 20
-247.750287302
 10
507.9614309995
 20
-241.8480476211
 10
509.7114994433
 20
-235.9588355527
 10
511.2645736074
 20
-230.0952189723
 10
512.6173391531
 20
-224.2697111331
 10
513.7669092106
 20
-218.4947439625
 10
514.7108305396
 20
-212.7826415314
 10
515.4470887643
 20
-207.1455937543
 10
515.9741126726
 20
-201.5956303752
 10
516.2907775688
 20
-196.1445952957
 10
516.3964076743
 20
-190.8041212992
 10
516.2907775688
 20
-185.5856052265
 10
515.9741126726
 20
-180.5001836539
 10
515.4470887643
 20
-175.5587091272
 10
514.7108305396
 20
-170.7717270022
 10
513.7669092106
 20
-166.1494529399
 10
512.6173391531
 20
-161.7017511061
 10
511.2645736074
 20
-157.4381131207
 10
509.7114994433
 20
-153.367637802
 10
507.9614309995
 20
-149.4990117494
 10
506.0181030102
 20
-145.840490806
 10
503.8856626353
 20
-142.3998824398
 10
501.5686606099
 20
-139.1845290824
 10
499.0720415332
 20
-136.2012924599
 10
496.401133316
 20
-133.4565389497
 10
493.5616358112
 20
-130.9561259939
 10
490.5596086495
 20
-128.7053896
 10
487.4014583081
 20
-126.7091329528
 10
484.0939244391
 20
-124.9716161646
 10
480.6440654864
 20
-123.4965471837
 10
477.0592436228
 20
-122.2870738817
 10
473.3471090389
 20
-121.3457773356
 10
469.5155836169
 20
-120.6746663197
 10
465.5728440252
 20
-120.2751730186
 10
461.5273042688
 20
-120.1481499713
 10
457.3875977333
 20
-120.2938682512
 10
453.1625587613
 20
-120.7120168883
 10
448.8612037986
 20
-121.4017035323
 10
444.4927121537
 20
-122.3614563571
 10
440.0664064078
 20
-123.5892272019
 10
435.5917325204
 20
-125.0823959417
 10
431.0782396712
 20
-126.8377760793
 10
426.5355598813
 20
-128.8516215449
 10
421.9733874583
 20
-131.1196346908
 10
417.4014583081
 20
-133.6369754628
 10
412.829529158
 20
-136.3982717287
 10
408.267356735
 20
-139.3976307431
 10
403.7246769451
 20
-142.6286517228
 10
399.2111840958
 20
-146.0844395061
 10
394.7365102085
 20
-149.7576192679
 10
390.3102044626
 20
-153.6403522572
 10
385.9417128176
 20
-157.7243525263
 10
381.640357855
 20
-162.0009046128
 10
377.4153188829
 20
-166.4608821391
 10
373.2756123475
 20
-171.0947672882
 10
369.2300725911
 20
-175.8926711158
 10
365.2873329994
 20
-180.8443546533
 10
361.4558075774
 20
-185.9392507586
 10
357.7436729935
 20
-191.1664866665
 10
354.1588511299
 20
-196.5149071922
 10
350.7089921772
 20
-201.9730985368
 10
347.4014583081
 20
-207.5294126448
 10
344.2433079668
 20
-213.171992062
 10
341.2412808051
 20
-218.8887952395
 10
338.4017833002
 20
-224.6676222313
 10
335.7308750831
 20
-230.4961407292
 10
333.2342560064
 20
-236.3619123812
 10
330.917253981
 20
-242.2524193349
 10
328.784813606
 20
-248.1550909516
 10
326.8414856167
 20
-254.0573306325
 10
325.0914171729
 20
-259.9465427009
 10
323.5383430089
 20
-265.8101592813
 10
322.1855774632
 20
-271.6356671205
 10
321.0360074057
 20
-277.4106342911
 10
320.0920860767
 20
-283.1227367222
 10
319.355827852
 20
-288.7597844993
 10
318.8288039437
 20
-294.3097478784
 10
318.5121390474
 20
-299.760782958
 10
318.406508942
 20
-305.1012569544
 10
318.5121390474
 20
-310.3197730271
 10
318.8288039437
 20
-315.4051945997
 10
319.355827852
 20
-320.3466691264
 10
320.0920860767
 20
-325.1336512514
 10
321.0360074057
 20
-329.7559253137
 10
322.1855774632
 20
-334.2036271475
 10
323.5383430089
 20
-338.4672651329
 10
325.0914171729
 20
-342.5377404516
 10
326.8414856167
 20
-346.4063665042
 10
328.784813606
 20
-350.0648874476
 10
330.917253981
 20
-353.5054958138
 10
333.2342560064
 20
-356.7208491712
 10
335.7308750831
 20
-359.7040857937
 10
338.4017833002
 20
-362.448839304
 10
341.2412808051
 20
-364.9492522597
 10
344.2433079668
 20
-367.1999886536
 10
347.4014583081
 20
-369.1962453008
 10
350.7089921772
 20
-370.933762089
 10
354.1588511299
 20
-372.4088310699
 10
357.7436729935
 20
-373.6183043719
 10
361.4558075774
 20
-374.559600918
 10
365.2873329994
 20
-375.2307119339
 10
369.2300725911
 20
-375.630205235
 10
373.2756123475
 20
-375.7572282823
 10
377.4153188829
 20
-375.6115100024
 10
381.640357855
 20
-375.1933613653
 10
385.9417128176
 20
-374.5036747213
 10
390.3102044626
 20
-373.5439218965
 10
394.7365102085
 20
-372.3161510517
 10
399.2111840958
 20
-370.8229823119
 10
403.7246769451
 20
-369.0676021744
 10
408.267356735
 20
-367.0537567087
 10
412.829529158
 20
-364.7857435628
 10
417.4014583081
 20
-362.2684027908
  0
LWPOLYLINE
  5
B2
330
1F
100
AcDbEntity
  8
0
  6
Continuous
 62
     7
370
    25
100
AcDbPolyline
 90
       53
 70
   128
 43
0.0
 10
529.9225936413
 20
-427.2254715686
 10
534.4945227915
 20
-424.4641753027
 10
539.0566952145
 20
-421.4648162883
 10
543.5993750044
 20
-418.2337953086
 10
548.1128678536
 20
-414.7780075252
 10
552.587541741
 20
-411.1048277635
 10
557.0138474869
 20
-407.2220947742
 10
561.3823391318
 20
-403.1380945051
 10
565.6836940945
 20
-398.8615424186
 10
569.9087330665
 20
-394.4015648923
 10
574.048439602
 20
-389.7676797432
 10
578.0939793584
 20
-384.9697759156
 10
582.0367189501
 20
-380.0180923781
 10
585.8682443721
 20
-374.9231962728
 10
589.580378956
 20
-369.6959603649
 10
593.1652008196
 20
-364.3475398392
 10
596.6150597723
 20
-358.8893484946
 10
599.9225936413
 20
-353.3330343866
 10
603.0807439827
 20
-347.6904549694
 10
606.0827711444
 20
-341.9736517919
 10
608.9222686492
 20
-336.1948248001
 10
611.5931768664
 20
-330.3663063021
 10
614.0897959431
 20
-324.5005346502
 10
616.4067979685
 20
-318.6100276965
 10
618.5392383434
 20
-312.7073560798
 10
620.4825663327
 20
-306.8051163988
 10
622.2326347765
 20
-300.9159043305
 10
623.7857089406
 20
-295.0522877501
 10
625.1384744863
 20
-289.2267799109
 10
626.2880445438
 20
-283.4518127403
 10
627.2319658728
 20
-277.7397103092
 10
627.9682240975
 20
-272.1026625321
 10
628.4952480058
 20
-266.552699153
 10
628.811912902
 20
-261.1016640734
 10
628.9175430075
 20
-255.761190077
 10
628.811912902
 20
-250.5426740043
 10
628.4952480058
 20
-245.4572524317
 10
627.9682240975
 20
-240.515777905
 10
627.2319658728
 20
-235.72879578
 10
626.2880445438
 20
-231.1065217177
 10
625.1384744863
 20
-226.6588198839
 10
623.7857089406
 20
-222.3951818985
 10
622.2326347765
 20
-218.3247065798
 10
620.4825663327
 20
-214.4560805272
 10
618.5392383434
 20
-210.7975595838
 10
616.4067979685
 20
-207.3569512175
 10
614.0897959431
 20
-204.1415978601
 10
611.5931768664
 20
-201.1583612377
 10
608.9222686492
 20
-198.4136077274
 10
606.0827711444
 20
-195.9131947717
 10
603.0807439827
 20
-193.6624583778
 10
599.9225936413
 20
-191.6662017306
 10
599.9169049259
 20
-191.6629171713
  0
LWPOLYLINE
  5
B3
330
1F
100
AcDbEntity
  8
0
  6
Continuous
 62
     7
370
    25
100
AcDbPolyline
 90
       18
 70
   128
 43
0.0
 10
459.9282823568
 20
-434.1565986379
 10
463.2301275104
 20
-435.8908308668
 10
466.6799864631
 20
-437.3658998477
 10
470.2648083267
 20
-438.5753731497
 10
473.9769429106
 20
-439.5166696958
 10
477.8084683326
 20
-440.1877807117
 10
481.7512079243
 20
-440.5872740128
 10
485.7967476807
 20
-440.7142970601
 10
489.9364542161
 20
-440.5685787801
 10
494.1614931882
 20
-440.150430143
 10
498.4628481508
 20
-439.4607434991
 10
502.8313397958
 20
-438.5009906743
 10
507.2576455417
 20
-437.2732198295
 10
511.732319429
 20
-435.7800510897
 10
516.2458122783
 20
-434.0246709521
 10
520.7884920682
 20
-432.0108254865
 10
525.3506644912
 20
-429.7428123405
 10
529.9225936413
 20
-427.2254715686
  0
LWPOLYLINE
  5
B4
330
1F
100
AcDbEntity
  8
0
  6
Continuous
 62
     7
370
    25
100
AcDbPolyline
 90
      129
 70
   128
 43
0.0
 10
417.4014583081
 20
-348.7138253135
 10
421.6829552285
 20
-346.1207985507
 10
425.9541376477
 20
-343.2912762138
 10
430.2047159133
 20
-340.2320748699
 10
434.4244500099
 20
-336.9505644031
 10
438.6031742284
 20
-333.4546502594
 10
442.7308216563
 20
-329.7527544022
 10
446.7974484292
 20
-325.853795023
 10
450.7932576872
 20
-321.7671650563
 10
454.7086231756
 20
-317.5027095518
 10
458.5341124362
 20
-313.0707019562
 10
462.2605095302
 20
-308.481819364
 10
465.8788372406
 20
-303.7471167953
 10
469.3803786991
 20
-298.8780005634
 10
472.7566983855
 20
-293.8862007956
 10
475.99966245
 20
-288.783743175
 10
479.1014583081
 20
-283.5829199688
 10
482.054613462
 20
-278.2962604157
 10
484.8520135022
 20
-272.9365005415
 10
487.4869192469
 20
-267.5165524773
 10
489.9529829774
 20
-262.0494733527
 10
492.2442637303
 20
-256.5484338402
 10
494.3552416094
 20
-251.0266864258
 10
496.2808310842
 20
-245.4975334826
 10
498.016393241
 20
-239.9742952244
 10
499.5577469585
 20
-234.470277616
 10
500.9011789806
 20
-228.9987403178
 10
502.0434528619
 20
-223.5728647424
 10
502.9818167645
 20
-218.2057222994
 10
503.7140100877
 20
-212.9102429051
 10
504.2382689135
 20
-207.699183833
 10
504.5533302566
 20
-202.585098981
 10
504.6584351066
 20
-197.5803086273
 10
504.5533302566
 20
-192.6968697504
 10
504.2382689135
 20
-187.9465469822
 10
503.7140100877
 20
-183.3407842664
 10
502.9818167645
 20
-178.8906772887
 10
502.0434528619
 20
-174.6069467466
 10
500.9011789806
 20
-170.4999125223
 10
499.5577469585
 20
-166.5794688208
 10
498.016393241
 20
-162.8550603345
 10
496.2808310842
 20
-159.3356594897
 10
494.3552416094
 20
-156.0297448312
 10
492.2442637303
 20
-152.945280597
 10
489.9529829774
 20
-150.0896975316
 10
487.4869192469
 20
-147.4698749847
 10
484.8520135022
 20
-145.0921243384
 10
482.054613462
 20
-142.9621738022
 10
479.1014583081
 20
-141.0851546134
 10
475.99966245
 20
-139.4655886759
 10
472.7566983855
 20
-138.1073776656
 10
469.3803786991
 20
-137.0137936319
 10
465.8788372406
 20
-136.1874711146
 10
462.2605095302
 20
-135.630400797
 10
458.5341124362
 20
-135.3439247102
 10
454.7086231756
 20
-135.3287330003
 10
450.7932576872
 20
-135.5848622654
 10
446.7974484292
 20
-136.1116954676
 10
442.7308216563
 20
-136.9079634197
 10
438.6031742284
 20
-137.9717478424
 10
434.4244500099
 20
-139.3004859858
 10
430.2047159133
 20
-140.8909768034
 10
425.9541376477
 20
-142.7393886635
 10
421.6829552285
 20
-144.84126858
 10
417.4014583081
 20
-147.1915529401
 10
413.1199613878
 20
-149.7845797029
 10
408.8487789686
 20
-152.6141020398
 10
404.598200703
 20
-155.6733033837
 10
400.3784666064
 20
-158.9548138505
 10
396.1997423878
 20
-162.4507279942
 10
392.07209496
 20
-166.1526238514
 10
388.0054681871
 20
-170.0515832306
 10
384.0096589291
 20
-174.1382131973
 10
380.0942934406
 20
-178.4026687018
 10
376.2688041801
 20
-182.8346762975
 10
372.5424070861
 20
-187.4235588897
 10
368.9240793757
 20
-192.1582614583
 10
365.4225379172
 20
-197.0273776903
 10
362.0462182308
 20
-202.019177458
 10
358.8032541663
 20
-207.1216350786
 10
355.7014583081
 20
-212.3224582848
 10
352.7483031543
 20
-217.609117838
 10
349.9509031141
 20
-222.9688777121
 10
347.3159973694
 20
-228.3888257763
 10
344.8499336389
 20
-233.8559049009
 10
342.558652886
 20
-239.3569444134
 10
340.4476750069
 20
-244.8786918278
 10
338.522085532
 20
-250.407844771
 10
336.7865233753
 20
-255.9310830292
 10
335.2451696578
 20
-261.4351006376
 10
333.9017376357
 20
-266.9066379358
 10
332.7594637544
 20
-272.3325135112
 10
331.8210998518
 20
-277.6996559542
 10
331.0889065286
 20
-282.9951353485
 10
330.5646477028
 20
-288.2061944206
 10
330.2495863597
 20
-293.3202792726
 10
330.1444815097
 20
-298.3250696263
 10
330.2495863597
 20
-303.2085085032
 10
330.5646477028
 20
-307.9588312714
 10
331.0889065286
 20
-312.5645939872
 10
331.8210998518
 20
-317.0147009649
 10
332.7594637544
 20
-321.298431507
 10
333.9017376357
 20
-325.4054657313
 10
335.2451696578
 20
-329.3259094328
 10
336.7865233753
 20
-333.0503179191
 10
338.5220855321
 20
-336.5697187639
 10
340.4476750069
 20
-339.8756334224
 10
342.558652886
 20
-342.9600976566
 10
344.8499336389
 20
-345.815680722
 10
347.3159973694
 20
-348.4355032689
 10
349.9509031141
 20
-350.8132539152
 10
352.7483031543
 20
-352.9432044514
 10
355.7014583081
 20
-354.8202236402
 10
358.8032541663
 20
-356.4397895778
 10
362.0462182308
 20
-357.798000588
 10
365.4225379172
 20
-358.8915846217
 10
368.9240793757
 20
-359.717907139
 10
372.5424070861
 20
-360.2749774566
 10
376.2688041801
 20
-360.5614535434
 10
380.0942934407
 20
-360.5766452533
 10
384.0096589291
 20
-360.3205159882
 10
388.0054681871
 20
-359.793682786
 10
392.07209496
 20
-358.9974148339
 10
396.1997423878
 20
-357.9336304112
 10
400.3784666064
 20
-356.6048922678
 10
404.598200703
 20
-355.0144014502
 10
408.8487789686
 20
-353.1659895901
 10
413.1199613878
 20
-351.0641096736
 10
417.4014583081
 20
-348.7138253135
  0
LWPOLYLINE
  5
B5
330
1F
100
AcDbEntity
  8
0
  6
Continuous
 62
     7
370
    25
100
AcDbPolyline
 90
       25
 70
   128
 43
0.0
 10
502.8231710333
 20
-219.196869785
 10
499.4373324411
 20
-222.0485201573
 10
495.3096850132
 20
-225.7504160144
 10
491.2430582403
 20
-229.6493753937
 10
487.2472489824
 20
-233.7360053603
 10
483.3318834939
 20
-238.0004608649
 10
479.5063942333
 20
-242.4324684605
 10
475.7799971393
 20
-247.0213510527
 10
472.1616694289
 20
-251.7560536214
 10
468.6601279704
 20
-256.6251698533
 10
465.283808284
 20
-261.616969621
 10
462.0408442195
 20
-266.7194272417
 10
458.9390483614
 20
-271.9202504479
 10
455.9858932075
 20
-277.206910001
 10
453.1884931674
 20
-282.5666698752
 10
450.5535874227
 20
-287.9866179394
 10
448.0875236921
 20
-293.4536970639
 10
445.7962429392
 20
-298.9547365765
 10
443.6852650601
 20
-304.4764839909
 10
441.7596755853
 20
-310.0056369341
 10
440.0241134285
 20
-315.5288751923
 10
438.482759711
 20
-321.0328928007
 10
437.1393276889
 20
-326.5044300989
 10
435.9970538076
 20
-331.9303056742
 10
435.2173356362
 20
-336.3063006317
  0
ENDSEC
  0
SECTION
  2
OBJECTS
  0
DICTIONARY
  5
C
330
0
100
AcDbDictionary
281
     1
  3
ACAD_GROUP
350
D
  3
ACAD_LAYOUT
350
1A
  3
ACAD_MLINESTYLE
350
17
  3
ACAD_PLOTSETTINGS
350
19
  3
ACAD_PLOTSTYLENAME
350
E
  3
ACAD_SCALELIST
350
47
  3
DWGPROPS
350
B6
  0
DICTIONARY
  5
D
102
{ACAD_REACTORS
330
C
102
}
330
C
100
AcDbDictionary
281
     1
  0
DICTIONARY
  5
1A
102
{ACAD_REACTORS
330
C
102
}
330
C
100
AcDbDictionary
281
     1
  3
Layout1
350
1E
  3
Layout2
350
26
  3
Model
350
22
  0
DICTIONARY
  5
17
102
{ACAD_REACTORS
330
C
102
}
330
C
100
AcDbDictionary
281
     1
  3
Standard
350
18
  0
DICTIONARY
  5
19
102
{ACAD_REACTORS
330
C
102
}
330
C
100
AcDbDictionary
281
     1
  0
ACDBDICTIONARYWDFLT
  5
E
102
{ACAD_REACTORS
330
C
102
}
330
C
100
AcDbDictionary
281
     1
  3
Normal
350
F
100
AcDbDictionaryWithDefault
340
F
  0
DICTIONARY
  5
47
102
{ACAD_REACTORS
330
C
102
}
330
C
100
AcDbDictionary
281
     1
  3
A0
350
48
  3
A1
350
49
  3
A2
350
4A
  3
A3
350
4B
  3
A4
350
4C
  3
A5
350
4D
  3
A6
350
4E
  3
A7
350
4F
  3
A8
350
50
  3
A9
350
51
  3
B0
350
52
  3
B1
350
53
  3
B2
350
54
  3
B3
350
55
  3
B4
350
56
  3
B5
350
57
  3
B6
350
58
  3
B7
350
59
  3
B8
350
5A
  3
B9
350
5B
  3
C0
350
5C
  3
C1
350
5D
  3
C2
350
5E
  3
C3
350
5F
  3
C4
350
60
  3
C5
350
61
  3
C6
350
62
  3
C7
350
63
  3
C8
350
64
  3
C9
350
65
  3
D0
350
66
  3
D1
350
67
  3
D2
350
68
  0
XRECORD
  5
B6
102
{ACAD_REACTORS
330
C
102
}
330
C
100
AcDbXrecord
280
     1
  1
DWGPROPS COOKIE
  2

  3

  4

  6

  7

  8
b.kav
  9

300
=
301
=
302
=
303
=
304
=
305
=
306
=
307
=
308
=
309
=
 40
0.0
 41
2460704.335261319
 42
2460704.335261551
  1

 90
        0
  0
LAYOUT
  5
1E
102
{ACAD_REACTORS
330
1A
102
}
330
1A
100
AcDbPlotSettings
  1

  2
none_device
  4

  6

 40
0.0
 41
0.0
 42
0.0
 43
0.0
 44
0.0
 45
0.0
 46
0.0
 47
0.0
 48
0.0
 49
0.0
140
0.0
141
0.0
142
1.0
143
1.0
 70
   688
 72
     1
 73
     0
 74
     5
  7

 75
    16
147
1.0
148
0.0
149
0.0
100
AcDbLayout
  1
Layout1
 70
     1
 71
     1
 10
0.0
 20
0.0
 11
420.0
 21
297.0
 12
0.0
 22
0.0
 32
0.0
 14
1.0000000000E+20
 24
1.0000000000E+20
 34
1.0000000000E+20
 15
-1.0000000000E+20
 25
-1.0000000000E+20
 35
-1.0000000000E+20
146
0.0
 13
0.0
 23
0.0
 33
0.0
 16
1.0
 26
0.0
 36
0.0
 17
0.0
 27
1.0
 37
0.0
 76
     0
330
1B
  0
LAYOUT
  5
26
102
{ACAD_REACTORS
330
1A
102
}
330
1A
100
AcDbPlotSettings
  1

  2
none_device
  4

  6

 40
0.0
 41
0.0
 42
0.0
 43
0.0
 44
0.0
 45
0.0
 46
0.0
 47
0.0
 48
0.0
 49
0.0
140
0.0
141
0.0
142
1.0
143
1.0
 70
   688
 72
     1
 73
     0
 74
     5
  7

 75
    16
147
1.0
148
0.0
149
0.0
100
AcDbLayout
  1
Layout2
 70
     1
 71
     2
 10
0.0
 20
0.0
 11
0.0
 21
0.0
 12
0.0
 22
0.0
 32
0.0
 14
0.0
 24
0.0
 34
0.0
 15
0.0
 25
0.0
 35
0.0
146
0.0
 13
0.0
 23
0.0
 33
0.0
 16
1.0
 26
0.0
 36
0.0
 17
0.0
 27
1.0
 37
0.0
 76
     0
330
23
  0
LAYOUT
  5
22
102
{ACAD_REACTORS
330
1A
102
}
330
1A
100
AcDbPlotSettings
  1

  2
none_device
  4
Letter_(8.50_x_11.00_Inches)
  6

 40
6.35
 41
6.35
 42
6.35000508
 43
6.35000508
 44
215.9
 45
279.4
 46
0.0
 47
0.0
 48
0.0
 49
0.0
140
0.0
141
0.0
142
1.0
143
1.0
 70
  1712
 72
     1
 73
     0
 74
     0
  7

 75
     0
147
1.0
148
0.0
149
0.0
100
AcDbLayout
  1
Model
 70
     1
 71
     0
 10
0.0
 20
0.0
 11
279.4
 21
215.9
 12
0.0
 22
0.0
 32
0.0
 14
0.0
 24
0.0
 34
0.0
 15
279.4
 25
215.9
 35
0.0
146
0.0
 13
0.0
 23
0.0
 33
0.0
 16
1.0
 26
0.0
 36
0.0
 17
0.0
 27
1.0
 37
0.0
 76
     0
330
1F
331
29
  0
MLINESTYLE
  5
18
102
{ACAD_REACTORS
330
17
102
}
330
17
100
AcDbMlineStyle
  2
Standard
 70
     0
  3

 62
   256
 51
90.0
 52
90.0
 71
     2
 49
0.5
 62
   256
  6
BYLAYER
 49
-0.5
 62
   256
  6
BYLAYER
  0
ACDBPLACEHOLDER
  5
F
102
{ACAD_REACTORS
330
E
102
}
330
E
  0
SCALE
  5
48
102
{ACAD_REACTORS
330
47
102
}
330
47
100
AcDbScale
 70
     0
300
1:1
140
1.0
141
1.0
290
     1
  0
SCALE
  5
49
102
{ACAD_REACTORS
330
47
102
}
330
47
100
AcDbScale
 70
     0
300
1:2
140
1.0
141
2.0
290
     0
  0
SCALE
  5
4A
102
{ACAD_REACTORS
330
47
102
}
330
47
100
AcDbScale
 70
     0
300
1:4
140
1.0
141
4.0
290
     0
  0
SCALE
  5
4B
102
{ACAD_REACTORS
330
47
102
}
330
47
100
AcDbScale
 70
     0
300
1:5
140
1.0
141
5.0
290
     0
  0
SCALE
  5
4C
102
{ACAD_REACTORS
330
47
102
}
330
47
100
AcDbScale
 70
     0
300
1:8
140
1.0
141
8.0
290
     0
  0
SCALE
  5
4D
102
{ACAD_REACTORS
330
47
102
}
330
47
100
AcDbScale
 70
     0
300
1:10
140
1.0
141
10.0
290
     0
  0
SCALE
  5
4E
102
{ACAD_REACTORS
330
47
102
}
330
47
100
AcDbScale
 70
     0
300
1:16
140
1.0
141
16.0
290
     0
  0
SCALE
  5
4F
102
{ACAD_REACTORS
330
47
102
}
330
47
100
AcDbScale
 70
     0
300
1:20
140
1.0
141
20.0
290
     0
  0
SCALE
  5
50
102
{ACAD_REACTORS
330
47
102
}
330
47
100
AcDbScale
 70
     0
300
1:30
140
1.0
141
30.0
290
     0
  0
SCALE
  5
51
102
{ACAD_REACTORS
330
47
102
}
330
47
100
AcDbScale
 70
     0
300
1:40
140
1.0
141
40.0
290
     0
  0
SCALE
  5
52
102
{ACAD_REACTORS
330
47
102
}
330
47
100
AcDbScale
 70
     0
300
1:50
140
1.0
141
50.0
290
     0
  0
SCALE
  5
53
102
{ACAD_REACTORS
330
47
102
}
330
47
100
AcDbScale
 70
     0
300
1:100
140
1.0
141
100.0
290
     0
  0
SCALE
  5
54
102
{ACAD_REACTORS
330
47
102
}
330
47
100
AcDbScale
 70
     0
300
2:1
140
2.0
141
1.0
290
     0
  0
SCALE
  5
55
102
{ACAD_REACTORS
330
47
102
}
330
47
100
AcDbScale
 70
     0
300
4:1
140
4.0
141
1.0
290
     0
  0
SCALE
  5
56
102
{ACAD_REACTORS
330
47
102
}
330
47
100
AcDbScale
 70
     0
300
8:1
140
8.0
141
1.0
290
     0
  0
SCALE
  5
57
102
{ACAD_REACTORS
330
47
102
}
330
47
100
AcDbScale
 70
     0
300
10:1
140
10.0
141
1.0
290
     0
  0
SCALE
  5
58
102
{ACAD_REACTORS
330
47
102
}
330
47
100
AcDbScale
 70
     0
300
100:1
140
100.0
141
1.0
290
     0
  0
SCALE
  5
59
102
{ACAD_REACTORS
330
47
102
}
330
47
100
AcDbScale
 70
     0
300
1/128" = 1'-0"
140
0.0078125
141
12.0
290
     0
  0
SCALE
  5
5A
102
{ACAD_REACTORS
330
47
102
}
330
47
100
AcDbScale
 70
     0
300
1/64" = 1'-0"
140
0.015625
141
12.0
290
     0
  0
SCALE
  5
5B
102
{ACAD_REACTORS
330
47
102
}
330
47
100
AcDbScale
 70
     0
300
1/32" = 1'-0"
140
0.03125
141
12.0
290
     0
  0
SCALE
  5
5C
102
{ACAD_REACTORS
330
47
102
}
330
47
100
AcDbScale
 70
     0
300
1/16" = 1'-0"
140
0.0625
141
12.0
290
     0
  0
SCALE
  5
5D
102
{ACAD_REACTORS
330
47
102
}
330
47
100
AcDbScale
 70
     0
300
3/32" = 1'-0"
140
0.09375
141
12.0
290
     0
  0
SCALE
  5
5E
102
{ACAD_REACTORS
330
47
102
}
330
47
100
AcDbScale
 70
     0
300
1/8" = 1'-0"
140
0.125
141
12.0
290
     0
  0
SCALE
  5
5F
102
{ACAD_REACTORS
330
47
102
}
330
47
100
AcDbScale
 70
     0
300
3/16" = 1'-0"
140
0.1875
141
12.0
290
     0
  0
SCALE
  5
60
102
{ACAD_REACTORS
330
47
102
}
330
47
100
AcDbScale
 70
     0
300
1/4" = 1'-0"
140
0.25
141
12.0
290
     0
  0
SCALE
  5
61
102
{ACAD_REACTORS
330
47
102
}
330
47
100
AcDbScale
 70
     0
300
3/8" = 1'-0"
140
0.375
141
12.0
290
     0
  0
SCALE
  5
62
102
{ACAD_REACTORS
330
47
102
}
330
47
100
AcDbScale
 70
     0
300
1/2" = 1'-0"
140
0.5
141
12.0
290
     0
  0
SCALE
  5
63
102
{ACAD_REACTORS
330
47
102
}
330
47
100
AcDbScale
 70
     0
300
3/4" = 1'-0"
140
0.75
141
12.0
290
     0
  0
SCALE
  5
64
102
{ACAD_REACTORS
330
47
102
}
330
47
100
AcDbScale
 70
     0
300
1" = 1'-0"
140
1.0
141
12.0
290
     0
  0
SCALE
  5
65
102
{ACAD_REACTORS
330
47
102
}
330
47
100
AcDbScale
 70
     0
300
1-1/2" = 1'-0"
140
1.5
141
12.0
290
     0
  0
SCALE
  5
66
102
{ACAD_REACTORS
330
47
102
}
330
47
100
AcDbScale
 70
     0
300
3" = 1'-0"
140
3.0
141
12.0
290
     0
  0
SCALE
  5
67
102
{ACAD_REACTORS
330
47
102
}
330
47
100
AcDbScale
 70
     0
300
6" = 1'-0"
140
6.0
141
12.0
290
     0
  0
SCALE
  5
68
102
{ACAD_REACTORS
330
47
102
}
330
47
100
AcDbScale
 70
     0
300
1'-0" = 1'-0"
140
12.0
141
12.0
290
     0
  0
ENDSEC
  0
EOF
